  0
SECTION
  2
HEADER
  9
$ACADVER
  1
AC1015
  9
$ACADMAINTVER
 70
     6
  9
$DWGCODEPAGE
  3
ANSI_1254
  9
$INSBASE
 10
0.0
 20
0.0
 30
0.0
  9
$EXTMIN
 10
0.0
 20
0.0
 30
0.0
  9
$EXTMAX
 10
279.4
 20
215.9
 30
0.0
  9
$LIMMIN
 10
0.0
 20
0.0
  9
$LIMMAX
 10
279.4
 20
215.9
  9
$ORTHOMODE
 70
     0
  9
$REGENMODE
 70
     1
  9
$FILLMODE
 70
     1
  9
$QTEXTMODE
 70
     0
  9
$MIRRTEXT
 70
     1
  9
$LTSCALE
 40
1.0
  9
$ATTMODE
 70
     1
  9
$TEXTSIZE
 40
3.5
  9
$TRACEWID
 40
1.0
  9
$TEXTSTYLE
  7
Standard
  9
$CLAYER
  8
0
  9
$CELTYPE
  6
ByLayer
  9
$CECOLOR
 62
   256
  9
$CELTSCALE
 40
1.0
  9
$DISPSILH
 70
     0
  9
$DIMSCALE
 40
1.0
  9
$DIMASZ
 40
3.5
  9
$DIMEXO
 40
1.0
  9
$DIMDLI
 40
3.75
  9
$DIMRND
 40
0.0
  9
$DIMDLE
 40
0.0
  9
$DIMEXE
 40
1.0
  9
$DIMTP
 40
0.0
  9
$DIMTM
 40
0.0
  9
$DIMTXT
 40
3.5
  9
$DIMCEN
 40
2.5
  9
$DIMTSZ
 40
0.0
  9
$DIMTOL
 70
     0
  9
$DIMLIM
 70
     0
  9
$DIMTIH
 70
     1
  9
$DIMTOH
 70
     1
  9
$DIMSE1
 70
     0
  9
$DIMSE2
 70
     0
  9
$DIMTAD
 70
     1
  9
$DIMZIN
 70
     0
  9
$DIMBLK
  1

  9
$DIMASO
 70
     1
  9
$DIMSHO
 70
     1
  9
$DIMPOST
  1

  9
$DIMAPOST
  1

  9
$DIMALT
 70
     0
  9
$DIMALTD
 70
     3
  9
$DIMALTF
 40
0.0393700787
  9
$DIMLFAC
 40
1.0
  9
$DIMTOFL
 70
     1
  9
$DIMTVP
 40
0.0
  9
$DIMTIX
 70
     0
  9
$DIMSOXD
 70
     0
  9
$DIMSAH
 70
     0
  9
$DIMBLK1
  1

  9
$DIMBLK2
  1

  9
$DIMSTYLE
  2
ISO-25
  9
$DIMCLRD
 70
     0
  9
$DIMCLRE
 70
     0
  9
$DIMCLRT
 70
     0
  9
$DIMTFAC
 40
1.0
  9
$DIMGAP
 40
1.524
  9
$DIMJUST
 70
     0
  9
$DIMSD1
 70
     0
  9
$DIMSD2
 70
     0
  9
$DIMTOLJ
 70
     0
  9
$DIMTZIN
 70
     0
  9
$DIMALTZ
 70
     0
  9
$DIMALTTZ
 70
     0
  9
$DIMUPT
 70
     0
  9
$DIMDEC
 70
     2
  9
$DIMTDEC
 70
     2
  9
$DIMALTU
 70
     2
  9
$DIMALTTD
 70
     3
  9
$DIMTXSTY
  7
Standard
  9
$DIMAUNIT
 70
     0
  9
$DIMADEC
 70
     2
  9
$DIMALTRND
 40
0.0
  9
$DIMAZIN
 70
     0
  9
$DIMDSEP
 70
    44
  9
$DIMATFIT
 70
     3
  9
$DIMFRAC
 70
     0
  9
$DIMLDRBLK
  1

  9
$DIMLUNIT
 70
     2
  9
$DIMLWD
 70
    -2
  9
$DIMLWE
 70
    -2
  9
$DIMTMOVE
 70
     0
  9
$LUNITS
 70
     2
  9
$LUPREC
 70
     2
  9
$SKETCHINC
 40
1.0
  9
$FILLETRAD
 40
10.0
  9
$AUNITS
 70
     0
  9
$AUPREC
 70
     2
  9
$MENU
  1
.
  9
$ELEVATION
 40
0.0
  9
$PELEVATION
 40
0.0
  9
$THICKNESS
 40
0.0
  9
$LIMCHECK
 70
     0
  9
$CHAMFERA
 40
0.0
  9
$CHAMFERB
 40
0.0
  9
$CHAMFERC
 40
0.0
  9
$CHAMFERD
 40
0.0
  9
$SKPOLY
 70
     0
  9
$TDCREATE
 40
2458985.705382349
  9
$TDUCREATE
 40
2458985.580382349
  9
$TDUPDATE
 40
2458985.705382616
  9
$TDUUPDATE
 40
2458985.580382616
  9
$TDINDWG
 40
0.0000000116
  9
$TDUSRTIMER
 40
0.0000000116
  9
$USRTIMER
 70
     1
  9
$ANGBASE
 50
0.0
  9
$ANGDIR
 70
     0
  9
$PDMODE
 70
     0
  9
$PDSIZE
 40
-1.0
  9
$PLINEWID
 40
0.0
  9
$SPLFRAME
 70
     0
  9
$SPLINETYPE
 70
     6
  9
$SPLINESEGS
 70
     8
  9
$HANDSEED
  5
EF
  9
$SURFTAB1
 70
     6
  9
$SURFTAB2
 70
     6
  9
$SURFTYPE
 70
     6
  9
$SURFU
 70
     6
  9
$SURFV
 70
     6
  9
$UCSBASE
  2

  9
$UCSNAME
  2

  9
$UCSORG
 10
0.0
 20
0.0
 30
0.0
  9
$UCSXDIR
 10
1.0
 20
0.0
 30
0.0
  9
$UCSYDIR
 10
0.0
 20
1.0
 30
0.0
  9
$UCSORTHOREF
  2

  9
$UCSORTHOVIEW
 70
     0
  9
$UCSORGTOP
 10
0.0
 20
0.0
 30
0.0
  9
$UCSORGBOTTOM
 10
0.0
 20
0.0
 30
0.0
  9
$UCSORGLEFT
 10
0.0
 20
0.0
 30
0.0
  9
$UCSORGRIGHT
 10
0.0
 20
0.0
 30
0.0
  9
$UCSORGFRONT
 10
0.0
 20
0.0
 30
0.0
  9
$UCSORGBACK
 10
0.0
 20
0.0
 30
0.0
  9
$PUCSBASE
  2

  9
$PUCSNAME
  2

  9
$PUCSORG
 10
0.0
 20
0.0
 30
0.0
  9
$PUCSXDIR
 10
1.0
 20
0.0
 30
0.0
  9
$PUCSYDIR
 10
0.0
 20
1.0
 30
0.0
  9
$PUCSORTHOREF
  2

  9
$PUCSORTHOVIEW
 70
     0
  9
$PUCSORGTOP
 10
0.0
 20
0.0
 30
0.0
  9
$PUCSORGBOTTOM
 10
0.0
 20
0.0
 30
0.0
  9
$PUCSORGLEFT
 10
0.0
 20
0.0
 30
0.0
  9
$PUCSORGRIGHT
 10
0.0
 20
0.0
 30
0.0
  9
$PUCSORGFRONT
 10
0.0
 20
0.0
 30
0.0
  9
$PUCSORGBACK
 10
0.0
 20
0.0
 30
0.0
  9
$USERI1
 70
     0
  9
$USERI2
 70
     0
  9
$USERI3
 70
     0
  9
$USERI4
 70
     0
  9
$USERI5
 70
     0
  9
$USERR1
 40
0.0
  9
$USERR2
 40
0.0
  9
$USERR3
 40
0.0
  9
$USERR4
 40
0.0
  9
$USERR5
 40
0.0
  9
$WORLDVIEW
 70
     1
  9
$SHADEDGE
 70
     3
  9
$SHADEDIF
 70
    70
  9
$TILEMODE
 70
     1
  9
$MAXACTVP
 70
    64
  9
$PINSBASE
 10
0.0
 20
0.0
 30
0.0
  9
$PLIMCHECK
 70
     0
  9
$PEXTMIN
 10
1.0000000000E+20
 20
1.0000000000E+20
 30
1.0000000000E+20
  9
$PEXTMAX
 10
-1.0000000000E+20
 20
-1.0000000000E+20
 30
-1.0000000000E+20
  9
$PLIMMIN
 10
0.0
 20
0.0
  9
$PLIMMAX
 10
420.0
 20
297.0
  9
$UNITMODE
 70
     0
  9
$VISRETAIN
 70
     1
  9
$PLINEGEN
 70
     0
  9
$PSLTSCALE
 70
     1
  9
$TREEDEPTH
 70
  3020
  9
$CMLSTYLE
  2
Standard
  9
$CMLJUST
 70
     0
  9
$CMLSCALE
 40
20.0
  9
$PROXYGRAPHICS
 70
     1
  9
$MEASUREMENT
 70
     1
  9
$CELWEIGHT
370
    -1
  9
$ENDCAPS
280
     0
  9
$JOINSTYLE
280
     0
  9
$LWDISPLAY
290
     1
  9
$INSUNITS
 70
     4
  9
$HYPERLINKBASE
  1

  9
$STYLESHEET
  1

  9
$XEDIT
290
     1
  9
$CEPSNTYPE
380
     0
  9
$PSTYLEMODE
290
     1
  9
$FINGERPRINTGUID
  2
{07771213-b0c2-44c8-8905-f04d9a2727d3}
  9
$VERSIONGUID
  2
{FAEB1C32-E019-11D5-929B-00C0DF256EC4}
  9
$EXTNAMES
290
     1
  9
$PSVPSCALE
 40
0.0
  9
$OLESTARTUP
290
     0
  0
ENDSEC
  0
SECTION
  2
CLASSES
  0
CLASS
  1
ACDBDICTIONARYWDFLT
  2
AcDbDictionaryWithDefault
  3
ObjectDBX Classes
 90
        0
280
     0
281
     0
  0
CLASS
  1
VISUALSTYLE
  2
AcDbVisualStyle
  3
ObjectDBX Classes
 90
     4095
280
     0
281
     0
  0
CLASS
  1
MATERIAL
  2
AcDbMaterial
  3
ObjectDBX Classes
 90
     1153
280
     0
281
     0
  0
CLASS
  1
SCALE
  2
AcDbScale
  3
ObjectDBX Classes
 90
     1153
280
     0
281
     0
  0
CLASS
  1
TABLESTYLE
  2
AcDbTableStyle
  3
ObjectDBX Classes
 90
     4095
280
     0
281
     0
  0
CLASS
  1
MLEADERSTYLE
  2
AcDbMLeaderStyle
  3
ACDB_MLEADERSTYLE_CLASS
 90
     4095
280
     0
281
     0
  0
CLASS
  1
SUN
  2
AcDbSun
  3
SCENEOE
 90
     1153
280
     0
281
     0
  0
CLASS
  1
ACDBPLACEHOLDER
  2
AcDbPlaceHolder
  3
ObjectDBX Classes
 90
        0
280
     0
281
     0
  0
CLASS
  1
LAYOUT
  2
AcDbLayout
  3
ObjectDBX Classes
 90
        0
280
     0
281
     0
  0
ENDSEC
  0
SECTION
  2
TABLES
  0
TABLE
  2
VPORT
  5
8
330
0
100
AcDbSymbolTable
 70
     1
  0
VPORT
  5
29
330
8
100
AcDbSymbolTableRecord
100
AcDbViewportTableRecord
  2
*Active
 70
     0
 10
0.0
 20
0.0
 11
1.0
 21
1.0
 12
139.7
 22
107.95
 13
0.0
 23
0.0
 14
10.0
 24
10.0
 15
10.0
 25
10.0
 16
0.0
 26
0.0
 36
1.0
 17
0.0
 27
0.0
 37
0.0
 40
215.9
 41
1.2941176471
 42
50.0
 43
0.0
 44
0.0
 50
0.0
 51
0.0
 71
     0
 72
  2000
 73
     1
 74
     3
 75
     0
 76
     0
 77
     0
 78
     0
281
     0
 65
     1
110
0.0
120
0.0
130
0.0
111
1.0
121
0.0
131
0.0
112
0.0
122
1.0
132
0.0
 79
     0
146
0.0
  0
ENDTAB
  0
TABLE
  2
LTYPE
  5
5
330
0
100
AcDbSymbolTable
 70
     6
  0
LTYPE
  5
14
330
5
100
AcDbSymbolTableRecord
100
AcDbLinetypeTableRecord
  2
ByBlock
 70
     0
  3

 72
    65
 73
     0
 40
0.0
  0
LTYPE
  5
15
330
5
100
AcDbSymbolTableRecord
100
AcDbLinetypeTableRecord
  2
ByLayer
 70
     0
  3

 72
    65
 73
     0
 40
0.0
  0
LTYPE
  5
16
330
5
100
AcDbSymbolTableRecord
100
AcDbLinetypeTableRecord
  2
Continuous
 70
     0
  3
Solid line
 72
    65
 73
     0
 40
0.0
  0
LTYPE
  5
6E
330
5
100
AcDbSymbolTableRecord
100
AcDbLinetypeTableRecord
  2
HIDDEN
 70
     0
  3
Hidden __ __ __ __ __ __ __ __ __ __ __ __ __ __
 72
    65
 73
     2
 40
1.905
 49
1.27
 74
     0
 49
-0.635
 74
     0
  0
LTYPE
  5
6F
330
5
100
AcDbSymbolTableRecord
100
AcDbLinetypeTableRecord
  2
PHANTOM
 70
     0
  3
Phantom ______  __  __  ______  __  __  ______
 72
    65
 73
     6
 40
12.7
 49
6.35
 74
     0
 49
-1.27
 74
     0
 49
1.27
 74
     0
 49
-1.27
 74
     0
 49
1.27
 74
     0
 49
-1.27
 74
     0
  0
LTYPE
  5
70
330
5
100
AcDbSymbolTableRecord
100
AcDbLinetypeTableRecord
  2
CENTER
 70
     0
  3
Center ____ _ ____ _ ____ _ ____ _ ____ _ ____
 72
    65
 73
     4
 40
10.16
 49
6.35
 74
     0
 49
-1.27
 74
     0
 49
1.27
 74
     0
 49
-1.27
 74
     0
  0
LTYPE
  5
71
330
5
100
AcDbSymbolTableRecord
100
AcDbLinetypeTableRecord
  2
CENTERX2
 70
     0
  3
Center (2x) ________  __  ________  __  _____
 72
    65
 73
     4
 40
20.32
 49
12.7
 74
     0
 49
-2.54
 74
     0
 49
2.54
 74
     0
 49
-2.54
 74
     0
  0
LTYPE
  5
72
330
5
100
AcDbSymbolTableRecord
100
AcDbLinetypeTableRecord
  2
DOT2
 70
     0
  3
Dot (.5x) ........................................
 72
    65
 73
     2
 40
0.635
 49
0.0
 74
     0
 49
-0.635
 74
     0
  0
ENDTAB
  0
TABLE
  2
LAYER
  5
2
330
0
100
AcDbSymbolTable
 70
    17
  0
LAYER
  5
10
330
2
100
AcDbSymbolTableRecord
100
AcDbLayerTableRecord
  2
0
 70
     0
 62
     7
  6
Continuous
370
    -3
390
F
  0
LAYER
  5
73
330
2
100
AcDbSymbolTableRecord
100
AcDbLayerTableRecord
  2
FORMAT
 70
     0
 62
     7
  6
Continuous
370
    -3
390
F
  0
LAYER
  5
74
330
2
100
AcDbSymbolTableRecord
100
AcDbLayerTableRecord
  2
YARDIMCI_GEOMETRI
 70
     0
 62
    -6
  6
Continuous
290
     0
370
    -3
390
F
  0
LAYER
  5
75
330
2
100
AcDbSymbolTableRecord
100
AcDbLayerTableRecord
  2
SAYFA_CERCEVESI
 70
     0
 62
     7
  6
Continuous
370
    25
390
F
  0
LAYER
  5
76
330
2
100
AcDbSymbolTableRecord
100
AcDbLayerTableRecord
  2
ANTET
 70
     0
 62
     7
  6
Continuous
370
    -3
390
F
  0
LAYER
  5
77
330
2
100
AcDbSymbolTableRecord
100
AcDbLayerTableRecord
  2
OLCU
 70
     0
 62
   150
  6
Continuous
370
    -3
390
F
  0
LAYER
  5
78
330
2
100
AcDbSymbolTableRecord
100
AcDbLayerTableRecord
  2
METIN
 70
     0
 62
    96
  6
Continuous
370
    -3
390
F
  0
LAYER
  5
79
330
2
100
AcDbSymbolTableRecord
100
AcDbLayerTableRecord
  2
BALON
 70
     0
 62
     5
  6
Continuous
370
    -3
390
F
  0
LAYER
  5
7A
330
2
100
AcDbSymbolTableRecord
100
AcDbLayerTableRecord
  2
VURGU
 70
     0
 62
     7
  6
Continuous
370
    -3
390
F
  0
LAYER
  5
7B
330
2
100
AcDbSymbolTableRecord
100
AcDbLayerTableRecord
  2
SILIK
 70
     0
 62
     7
  6
Continuous
370
    -3
390
F
  0
LAYER
  5
7C
330
2
100
AcDbSymbolTableRecord
100
AcDbLayerTableRecord
  2
MODEL
 70
     0
 62
     7
  6
Continuous
370
    -3
390
F
  0
LAYER
  5
7D
330
2
100
AcDbSymbolTableRecord
100
AcDbLayerTableRecord
  2
DETAYLANDıRMA
 70
     0
 62
   190
  6
Continuous
370
    -3
390
F
  0
LAYER
  5
7E
330
2
100
AcDbSymbolTableRecord
100
AcDbLayerTableRecord
  2
TOLERANS
 70
     0
 62
   230
  6
Continuous
370
    -3
390
F
  0
LAYER
  5
7F
330
2
100
AcDbSymbolTableRecord
100
AcDbLayerTableRecord
  2
MERKEZ_CIZGILERI
 70
     0
 62
    30
  6
Continuous
370
    -3
390
F
  0
LAYER
  5
80
330
2
100
AcDbSymbolTableRecord
100
AcDbLayerTableRecord
  2
KESIT-DETAY_CIZGILERI
 70
     0
 62
     7
  6
Continuous
370
    -3
390
F
  0
LAYER
  5
81
330
2
100
AcDbSymbolTableRecord
100
AcDbLayerTableRecord
  2
\U+041E\U+0421\U+0415\U+0412\U+042B\U+0415
 70
     0
 62
     7
  6
Continuous
370
    -3
390
F
  0
LAYER
  5
82
330
2
100
AcDbSymbolTableRecord
100
AcDbLayerTableRecord
  2
\U+0412\U+041E\U+0414\U+042F\U+041D\U+042B\U+0415_\U+0417\U+041D\U+0410\U+041A\U+0418
 70
     0
 62
    11
  6
Continuous
370
    -3
390
F
  0
ENDTAB
  0
TABLE
  2
STYLE
  5
3
330
0
100
AcDbSymbolTable
 70
     1
  0
STYLE
  5
11
330
3
100
AcDbSymbolTableRecord
100
AcDbTextStyleTableRecord
  2
Standard
 70
     0
 40
0.0
 41
1.0
 50
0.0
 71
     0
 42
3.5
  3
txt
  4

  0
ENDTAB
  0
TABLE
  2
VIEW
  5
6
330
0
100
AcDbSymbolTable
 70
     0
  0
ENDTAB
  0
TABLE
  2
UCS
  5
7
330
0
100
AcDbSymbolTable
 70
     0
  0
ENDTAB
  0
TABLE
  2
APPID
  5
9
330
0
100
AcDbSymbolTable
 70
     1
  0
APPID
  5
12
330
9
100
AcDbSymbolTableRecord
100
AcDbRegAppTableRecord
  2
ACAD
 70
     0
  0
ENDTAB
  0
TABLE
  2
DIMSTYLE
  5
A
330
0
100
AcDbSymbolTable
 70
     1
100
AcDbDimStyleTable
  0
DIMSTYLE
105
27
330
A
100
AcDbSymbolTableRecord
100
AcDbDimStyleTableRecord
  2
ISO-25
 70
     0
 41
2.5
 42
0.625
 43
3.75
 44
1.25
 73
     0
 74
     0
 77
     1
 78
     8
140
2.5
141
2.5
143
0.0393700787
147
0.625
171
     3
172
     1
178
     0
271
     2
272
     2
274
     3
278
    44
283
     0
284
     8
340
11
  0
ENDTAB
  0
TABLE
  2
BLOCK_RECORD
  5
1
330
0
100
AcDbSymbolTable
 70
     2
  0
BLOCK_RECORD
  5
1F
330
1
100
AcDbSymbolTableRecord
100
AcDbBlockTableRecord
  2
*Model_Space
340
22
  0
BLOCK_RECORD
  5
1B
330
1
100
AcDbSymbolTableRecord
100
AcDbBlockTableRecord
  2
*Paper_Space
340
1E
  0
BLOCK_RECORD
  5
23
330
1
100
AcDbSymbolTableRecord
100
AcDbBlockTableRecord
  2
*Paper_Space0
340
26
  0
BLOCK_RECORD
  5
88
330
1
100
AcDbSymbolTableRecord
100
AcDbBlockTableRecord
  2
SW_CENTERMARKSYMBOL_0
340
0
102
{BLKREFS
331
93
102
}
  0
ENDTAB
  0
ENDSEC
  0
SECTION
  2
BLOCKS
  0
BLOCK
  5
20
330
1F
100
AcDbEntity
  8
0
100
AcDbBlockBegin
  2
*Model_Space
 70
     0
 10
0.0
 20
0.0
 30
0.0
  3
*Model_Space
  1

  0
ENDBLK
  5
21
330
1F
100
AcDbEntity
  8
0
100
AcDbBlockEnd
  0
BLOCK
  5
1C
330
1B
100
AcDbEntity
 67
     1
  8
0
100
AcDbBlockBegin
  2
*Paper_Space
 70
     0
 10
0.0
 20
0.0
 30
0.0
  3
*Paper_Space
  1

  0
ENDBLK
  5
1D
330
1B
100
AcDbEntity
 67
     1
  8
0
100
AcDbBlockEnd
  0
BLOCK
  5
24
330
23
100
AcDbEntity
  8
0
100
AcDbBlockBegin
  2
*Paper_Space0
 70
     0
 10
0.0
 20
0.0
 30
0.0
  3
*Paper_Space0
  1

  0
ENDBLK
  5
25
330
23
100
AcDbEntity
  8
0
100
AcDbBlockEnd
  0
BLOCK
  5
89
330
88
100
AcDbEntity
  8
0
100
AcDbBlockBegin
  2
SW_CENTERMARKSYMBOL_0
 70
     0
 10
0.0
 20
0.0
 30
0.0
  3
SW_CENTERMARKSYMBOL_0
  1

  0
LINE
  5
8B
330
88
100
AcDbEntity
  8
FORMAT
 62
     0
100
AcDbLine
 10
0.0
 20
0.0
 30
0.0
 11
0.0
 21
2.5
 31
0.0
  0
LINE
  5
8C
330
88
100
AcDbEntity
  8
FORMAT
 62
     0
100
AcDbLine
 10
0.0
 20
0.0
 30
0.0
 11
-2.5
 21
0.0
 31
0.0
  0
LINE
  5
8D
330
88
100
AcDbEntity
  8
FORMAT
 62
     0
100
AcDbLine
 10
0.0
 20
0.0
 30
0.0
 11
0.0
 21
-2.5
 31
0.0
  0
LINE
  5
8E
330
88
100
AcDbEntity
  8
FORMAT
 62
     0
100
AcDbLine
 10
0.0
 20
0.0
 30
0.0
 11
2.5
 21
0.0
 31
0.0
  0
LINE
  5
8F
330
88
100
AcDbEntity
  8
FORMAT
 62
     0
100
AcDbLine
 10
0.0
 20
5.0
 30
0.0
 11
0.0
 21
57.5
 31
0.0
  0
LINE
  5
90
330
88
100
AcDbEntity
  8
FORMAT
 62
     0
100
AcDbLine
 10
-5.0
 20
0.0
 30
0.0
 11
-57.5
 21
0.0
 31
0.0
  0
LINE
  5
91
330
88
100
AcDbEntity
  8
FORMAT
 62
     0
100
AcDbLine
 10
0.0
 20
-5.0
 30
0.0
 11
0.0
 21
-57.5
 31
0.0
  0
LINE
  5
92
330
88
100
AcDbEntity
  8
FORMAT
 62
     0
100
AcDbLine
 10
5.0
 20
0.0
 30
0.0
 11
57.5
 21
0.0
 31
0.0
  0
ENDBLK
  5
8A
330
88
100
AcDbEntity
  8
0
100
AcDbBlockEnd
  0
ENDSEC
  0
SECTION
  2
ENTITIES
  0
CIRCLE
  5
83
330
1F
100
AcDbEntity
  8
0
  6
Continuous
 62
     7
370
    25
100
AcDbCircle
 10
136.0804557792
 20
118.8813202377
 30
0.0
 40
55.00000000000001
  0
CIRCLE
  5
84
330
1F
100
AcDbEntity
  8
0
  6
Continuous
 62
     7
370
    25
100
AcDbCircle
 10
136.0804557792
 20
118.8813202377
 30
0.0
 40
48.40000000000002
  0
CIRCLE
  5
85
330
1F
100
AcDbEntity
  8
0
  6
Continuous
 62
     7
370
    25
100
AcDbCircle
 10
136.0804557792
 20
118.8813202377
 30
0.0
 40
48.31003223490325
  0
CIRCLE
  5
86
330
1F
100
AcDbEntity
  8
0
  6
Continuous
 62
     7
370
    25
100
AcDbCircle
 10
136.0804557792
 20
118.8813202377
 30
0.0
 40
39.68996776509677
  0
CIRCLE
  5
87
330
1F
100
AcDbEntity
  8
0
  6
Continuous
 62
     7
370
    25
100
AcDbCircle
 10
136.0804557792
 20
118.8813202377
 30
0.0
 40
39.60000000000001
  0
INSERT
  5
93
330
1F
100
AcDbEntity
  8
FORMAT
 62
     7
100
AcDbBlockReference
  2
SW_CENTERMARKSYMBOL_0
 10
136.0804557792
 20
118.8813202377
 30
0.0
  0
ARC
  5
94
330
1F
100
AcDbEntity
  8
0
  6
Continuous
 62
     7
370
    25
100
AcDbCircle
 10
-116.8007806577
 20
171.8813202377
 30
0.0
 40
2.0
100
AcDbArc
 50
79.1144729453
 51
90.0
  0
ARC
  5
95
330
1F
100
AcDbEntity
  8
0
  6
Continuous
 62
     7
370
    25
100
AcDbCircle
 10
-116.8007806577
 20
65.8813202377
 30
0.0
 40
2.000000000000007
100
AcDbArc
 50
270.0
 51
280.8855270547
  0
LINE
  5
96
330
1F
100
AcDbEntity
  8
0
  6
Continuous
 62
     7
370
    25
100
AcDbLine
 10
-116.8007814527
 20
173.8813199397
 30
0.0
 11
-198.6102164925
 21
173.8813199397
 31
0.0
  0
LINE
  5
97
330
1F
100
AcDbEntity
  8
0
  6
Continuous
 62
     7
370
    25
100
AcDbLine
 10
-198.6102164925
 20
63.8813205357
 30
0.0
 11
-116.8007814527
 21
63.8813205357
 31
0.0
  0
LINE
  5
98
330
1F
100
AcDbEntity
  8
0
  6
Continuous
 62
     7
370
    25
100
AcDbLine
 10
-116.4230854452
 20
63.91730684
 30
0.0
 11
-64.7973512501
 21
73.8453321453
 31
0.0
  0
LINE
  5
99
330
1F
100
AcDbEntity
  8
0
  6
Continuous
 62
     7
370
    25
100
AcDbLine
 10
-64.7973512501
 20
163.9173083301
 30
0.0
 11
-116.4230854452
 21
173.8453336354
 31
0.0
  0
ARC
  5
9A
330
1F
100
AcDbEntity
  8
0
  6
Continuous
 62
     7
370
    25
100
AcDbCircle
 10
-64.4196569859
 20
165.8813202377
 30
0.0
 40
2.000000000000003
100
AcDbArc
 50
259.1144729453
 51
270.0
  0
ARC
  5
9B
330
1F
100
AcDbEntity
  8
0
  6
Continuous
 62
     7
370
    25
100
AcDbCircle
 10
-64.4196569859
 20
71.8813202377
 30
0.0
 40
2.000000000000017
100
AcDbArc
 50
90.0
 51
100.8855270547
  0
LINE
  5
9C
330
1F
100
AcDbEntity
  8
0
  6
Continuous
 62
     7
370
    25
100
AcDbLine
 10
14.3897830307
 20
163.8813220259
 30
0.0
 11
-64.4196571053
 21
163.8813220259
 31
0.0
  0
LINE
  5
9D
330
1F
100
AcDbEntity
  8
0
  6
Continuous
 62
     7
370
    25
100
AcDbLine
 10
-64.4196571053
 20
73.8813184496
 30
0.0
 11
14.3897830307
 21
73.8813184496
 31
0.0
  0
LINE
  5
9E
330
1F
100
AcDbEntity
  8
0
  6
Continuous
 62
     7
370
    25
100
AcDbLine
 10
-198.6102164925
 20
173.8813199397
 30
0.0
 11
-198.6102164925
 21
63.8813205357
 31
0.0
  0
LINE
  5
9F
330
1F
100
AcDbEntity
  8
0
  6
Continuous
 62
     7
370
    25
100
AcDbLine
 10
14.3897830307
 20
163.8813220259
 30
0.0
 11
14.3897830307
 21
73.8813184496
 31
0.0
  0
LINE
  5
A0
330
1F
100
AcDbEntity
  8
0
  6
Continuous
 62
     1
370
    25
100
AcDbLine
 10
-116.4230854452
 20
173.8453336354
 30
0.0
 11
-116.4230854452
 21
63.91730684
 31
0.0
  0
LINE
  5
A1
330
1F
100
AcDbEntity
  8
0
  6
Continuous
 62
     1
370
    25
100
AcDbLine
 10
-116.8007814527
 20
173.8813199397
 30
0.0
 11
-116.8007814527
 21
63.8813205357
 31
0.0
  0
LINE
  5
A2
330
1F
100
AcDbEntity
  8
0
  6
Continuous
 62
     1
370
    25
100
AcDbLine
 10
-64.7973512501
 20
163.9173083301
 30
0.0
 11
-64.7973512501
 21
73.8453321453
 31
0.0
  0
LINE
  5
A3
330
1F
100
AcDbEntity
  8
0
  6
Continuous
 62
     1
370
    25
100
AcDbLine
 10
-64.4196571053
 20
163.8813220259
 30
0.0
 11
-64.4196571053
 21
73.8813184496
 31
0.0
  0
ARC
  5
A4
330
1F
100
AcDbEntity
  8
0
  6
Continuous
 62
     7
370
    25
100
AcDbCircle
 10
189.0804557792
 20
338.0171764869
 30
0.0
 40
2.0
100
AcDbArc
 50
349.1144729453
 51
360.0
  0
ARC
  5
A5
330
1F
100
AcDbEntity
  8
0
  6
Continuous
 62
     7
370
    25
100
AcDbCircle
 10
83.0804557792
 20
338.0171764869
 30
0.0
 40
2.0
100
AcDbArc
 50
180.0
 51
190.8855270547
  0
LINE
  5
A6
330
1F
100
AcDbEntity
  8
0
  6
Continuous
 62
     7
370
    25
100
AcDbLine
 10
191.0804554812
 20
338.0171772819
 30
0.0
 11
191.0804554812
 21
419.8266123217
 31
0.0
  0
LINE
  5
A7
330
1F
100
AcDbEntity
  8
0
  6
Continuous
 62
     7
370
    25
100
AcDbLine
 10
81.0804560772
 20
419.8266123217
 30
0.0
 11
81.0804560772
 21
338.0171772819
 31
0.0
  0
LINE
  5
A8
330
1F
100
AcDbEntity
  8
0
  6
Continuous
 62
     7
370
    25
100
AcDbLine
 10
81.1164423815
 20
337.6394812745
 30
0.0
 11
91.0444676868
 21
286.0137470793
 31
0.0
  0
LINE
  5
A9
330
1F
100
AcDbEntity
  8
0
  6
Continuous
 62
     7
370
    25
100
AcDbLine
 10
181.1164438716
 20
286.0137470793
 30
0.0
 11
191.0444691769
 21
337.6394812745
 31
0.0
  0
ARC
  5
AA
330
1F
100
AcDbEntity
  8
0
  6
Continuous
 62
     7
370
    25
100
AcDbCircle
 10
183.0804557792
 20
285.6360528152
 30
0.0
 40
2.0
100
AcDbArc
 50
169.1144729453
 51
180.0
  0
ARC
  5
AB
330
1F
100
AcDbEntity
  8
0
  6
Continuous
 62
     7
370
    25
100
AcDbCircle
 10
89.0804557792
 20
285.6360528152
 30
0.0
 40
2.000000000000004
100
AcDbArc
 50
0.0
 51
10.8855270547
  0
LINE
  5
AC
330
1F
100
AcDbEntity
  8
0
  6
Continuous
 62
     7
370
    25
100
AcDbLine
 10
181.0804575673
 20
206.8266127985
 30
0.0
 11
181.0804575673
 21
285.6360529345
 31
0.0
  0
LINE
  5
AD
330
1F
100
AcDbEntity
  8
0
  6
Continuous
 62
     7
370
    25
100
AcDbLine
 10
91.080453991
 20
285.6360529345
 30
0.0
 11
91.080453991
 21
206.8266127985
 31
0.0
  0
LINE
  5
AE
330
1F
100
AcDbEntity
  8
0
  6
Continuous
 62
     7
370
    25
100
AcDbLine
 10
191.0804554812
 20
419.8266123217
 30
0.0
 11
81.0804560772
 21
419.8266123217
 31
0.0
  0
LINE
  5
AF
330
1F
100
AcDbEntity
  8
0
  6
Continuous
 62
     7
370
    25
100
AcDbLine
 10
181.0804575673
 20
206.8266127985
 30
0.0
 11
91.080453991
 21
206.8266127985
 31
0.0
  0
LINE
  5
B0
330
1F
100
AcDbEntity
  8
0
  6
Continuous
 62
     1
370
    25
100
AcDbLine
 10
191.0444691769
 20
337.6394812745
 30
0.0
 11
81.1164423815
 21
337.6394812745
 31
0.0
  0
LINE
  5
B1
330
1F
100
AcDbEntity
  8
0
  6
Continuous
 62
     1
370
    25
100
AcDbLine
 10
191.0804554812
 20
338.0171772819
 30
0.0
 11
81.0804560772
 21
338.0171772819
 31
0.0
  0
LINE
  5
B2
330
1F
100
AcDbEntity
  8
0
  6
Continuous
 62
     1
370
    25
100
AcDbLine
 10
181.1164438716
 20
286.0137470793
 30
0.0
 11
91.0444676868
 21
286.0137470793
 31
0.0
  0
LINE
  5
B3
330
1F
100
AcDbEntity
  8
0
  6
Continuous
 62
     1
370
    25
100
AcDbLine
 10
181.0804575673
 20
285.6360529345
 30
0.0
 11
91.080453991
 21
285.6360529345
 31
0.0
  0
ARC
  5
B4
330
1F
100
AcDbEntity
  8
0
  6
Continuous
 62
     7
370
    25
100
AcDbCircle
 10
396.0988726772
 20
65.8813202377
 30
0.0
 40
2.000000000000007
100
AcDbArc
 50
259.1144729453
 51
270.0
  0
ARC
  5
B5
330
1F
100
AcDbEntity
  8
0
  6
Continuous
 62
     7
370
    25
100
AcDbCircle
 10
396.0988726772
 20
171.8813202377
 30
0.0
 40
2.0
100
AcDbArc
 50
90.0
 51
100.8855270547
  0
LINE
  5
B6
330
1F
100
AcDbEntity
  8
0
  6
Continuous
 62
     7
370
    25
100
AcDbLine
 10
396.0988734722
 20
63.8813205357
 30
0.0
 11
477.908308512
 21
63.8813205357
 31
0.0
  0
LINE
  5
B7
330
1F
100
AcDbEntity
  8
0
  6
Continuous
 62
     7
370
    25
100
AcDbLine
 10
477.908308512
 20
173.8813199397
 30
0.0
 11
396.0988734722
 21
173.8813199397
 31
0.0
  0
LINE
  5
B8
330
1F
100
AcDbEntity
  8
0
  6
Continuous
 62
     7
370
    25
100
AcDbLine
 10
395.7211774647
 20
173.8453336354
 30
0.0
 11
344.0954432696
 21
163.9173083301
 31
0.0
  0
LINE
  5
B9
330
1F
100
AcDbEntity
  8
0
  6
Continuous
 62
     7
370
    25
100
AcDbLine
 10
344.0954432696
 20
73.8453321453
 30
0.0
 11
395.7211774647
 21
63.91730684
 31
0.0
  0
ARC
  5
BA
330
1F
100
AcDbEntity
  8
0
  6
Continuous
 62
     7
370
    25
100
AcDbCircle
 10
343.7177490054
 20
71.8813202377
 30
0.0
 40
2.000000000000004
100
AcDbArc
 50
79.1144729453
 51
90.0
  0
ARC
  5
BB
330
1F
100
AcDbEntity
  8
0
  6
Continuous
 62
     7
370
    25
100
AcDbCircle
 10
343.7177490054
 20
165.8813202377
 30
0.0
 40
2.0
100
AcDbArc
 50
270.0
 51
280.8855270547
  0
LINE
  5
BC
330
1F
100
AcDbEntity
  8
0
  6
Continuous
 62
     7
370
    25
100
AcDbLine
 10
264.9083089888
 20
73.8813184496
 30
0.0
 11
343.7177491248
 21
73.8813184496
 31
0.0
  0
LINE
  5
BD
330
1F
100
AcDbEntity
  8
0
  6
Continuous
 62
     7
370
    25
100
AcDbLine
 10
343.7177491248
 20
163.8813220259
 30
0.0
 11
264.9083089888
 21
163.8813220259
 31
0.0
  0
LINE
  5
BE
330
1F
100
AcDbEntity
  8
0
  6
Continuous
 62
     7
370
    25
100
AcDbLine
 10
477.908308512
 20
118.8813202377
 30
0.0
 11
477.908308512
 21
173.8813199397
 31
0.0
  0
LINE
  5
BF
330
1F
100
AcDbEntity
  8
0
  6
Continuous
 62
     7
370
    25
100
AcDbLine
 10
477.908308512
 20
63.8813205357
 30
0.0
 11
477.908308512
 21
118.8813202377
 31
0.0
  0
LINE
  5
C0
330
1F
100
AcDbEntity
  8
0
  6
Continuous
 62
     7
370
    25
100
AcDbLine
 10
264.9083089888
 20
118.8813202377
 30
0.0
 11
264.9083089888
 21
163.8813220259
 31
0.0
  0
LINE
  5
C1
330
1F
100
AcDbEntity
  8
0
  6
Continuous
 62
     7
370
    25
100
AcDbLine
 10
264.9083089888
 20
73.8813184496
 30
0.0
 11
264.9083089888
 21
118.8813202377
 31
0.0
  0
LINE
  5
C2
330
1F
100
AcDbEntity
  8
0
  6
Continuous
 62
     1
370
    25
100
AcDbLine
 10
395.7211774647
 20
118.8813202377
 30
0.0
 11
395.7211774647
 21
173.8453336354
 31
0.0
  0
LINE
  5
C3
330
1F
100
AcDbEntity
  8
0
  6
Continuous
 62
     1
370
    25
100
AcDbLine
 10
395.7211774647
 20
63.91730684
 30
0.0
 11
395.7211774647
 21
118.8813202377
 31
0.0
  0
LINE
  5
C4
330
1F
100
AcDbEntity
  8
0
  6
Continuous
 62
     1
370
    25
100
AcDbLine
 10
396.0988734722
 20
118.8813202377
 30
0.0
 11
396.0988734722
 21
173.8813199397
 31
0.0
  0
LINE
  5
C5
330
1F
100
AcDbEntity
  8
0
  6
Continuous
 62
     1
370
    25
100
AcDbLine
 10
396.0988734722
 20
63.8813205357
 30
0.0
 11
396.0988734722
 21
118.8813202377
 31
0.0
  0
LINE
  5
C6
330
1F
100
AcDbEntity
  8
0
  6
Continuous
 62
     1
370
    25
100
AcDbLine
 10
344.0954432696
 20
118.8813202377
 30
0.0
 11
344.0954432696
 21
163.9173083301
 31
0.0
  0
LINE
  5
C7
330
1F
100
AcDbEntity
  8
0
  6
Continuous
 62
     1
370
    25
100
AcDbLine
 10
344.0954432696
 20
73.8453321453
 30
0.0
 11
344.0954432696
 21
118.8813202377
 31
0.0
  0
LINE
  5
C8
330
1F
100
AcDbEntity
  8
0
  6
Continuous
 62
     1
370
    25
100
AcDbLine
 10
343.7177491248
 20
118.8813202377
 30
0.0
 11
343.7177491248
 21
163.8813220259
 31
0.0
  0
LINE
  5
C9
330
1F
100
AcDbEntity
  8
0
  6
Continuous
 62
     1
370
    25
100
AcDbLine
 10
343.7177491248
 20
73.8813184496
 30
0.0
 11
343.7177491248
 21
118.8813202377
 31
0.0
  0
ARC
  5
CA
330
1F
100
AcDbEntity
  8
0
  6
Continuous
 62
     7
370
    25
100
AcDbCircle
 10
83.0804557792
 20
-119.2608591604
 30
0.0
 40
2.000000000000003
100
AcDbArc
 50
169.1144729453
 51
180.0
  0
ARC
  5
CB
330
1F
100
AcDbEntity
  8
0
  6
Continuous
 62
     7
370
    25
100
AcDbCircle
 10
189.0804557792
 20
-119.2608591604
 30
0.0
 40
2.0
100
AcDbArc
 50
0.0
 51
10.8855270547
  0
LINE
  5
CC
330
1F
100
AcDbEntity
  8
0
  6
Continuous
 62
     7
370
    25
100
AcDbLine
 10
81.0804560772
 20
-119.2608599554
 30
0.0
 11
81.0804560772
 21
-201.0702949951
 31
0.0
  0
LINE
  5
CD
330
1F
100
AcDbEntity
  8
0
  6
Continuous
 62
     7
370
    25
100
AcDbLine
 10
191.0804554812
 20
-201.0702949951
 30
0.0
 11
191.0804554812
 21
-119.2608599554
 31
0.0
  0
LINE
  5
CE
330
1F
100
AcDbEntity
  8
0
  6
Continuous
 62
     7
370
    25
100
AcDbLine
 10
191.0444691769
 20
-118.8831639479
 30
0.0
 11
181.1164438716
 21
-67.2574297528
 31
0.0
  0
LINE
  5
CF
330
1F
100
AcDbEntity
  8
0
  6
Continuous
 62
     7
370
    25
100
AcDbLine
 10
91.0444676868
 20
-67.2574297528
 30
0.0
 11
81.1164423815
 21
-118.8831639479
 31
0.0
  0
ARC
  5
D0
330
1F
100
AcDbEntity
  8
0
  6
Continuous
 62
     7
370
    25
100
AcDbCircle
 10
89.0804557792
 20
-66.8797354886
 30
0.0
 40
2.000000000000014
100
AcDbArc
 50
349.1144729453
 51
0.0
  0
ARC
  5
D1
330
1F
100
AcDbEntity
  8
0
  6
Continuous
 62
     7
370
    25
100
AcDbCircle
 10
183.0804557792
 20
-66.8797354886
 30
0.0
 40
2.0
100
AcDbArc
 50
180.0
 51
190.8855270547
  0
LINE
  5
D2
330
1F
100
AcDbEntity
  8
0
  6
Continuous
 62
     7
370
    25
100
AcDbLine
 10
91.080453991
 20
11.929704528
 30
0.0
 11
91.080453991
 21
-66.8797356079
 31
0.0
  0
LINE
  5
D3
330
1F
100
AcDbEntity
  8
0
  6
Continuous
 62
     7
370
    25
100
AcDbLine
 10
181.0804575673
 20
-66.8797356079
 30
0.0
 11
181.0804575673
 21
11.929704528
 31
0.0
  0
LINE
  5
D4
330
1F
100
AcDbEntity
  8
0
  6
Continuous
 62
     7
370
    25
100
AcDbLine
 10
81.0804560772
 20
-201.0702949951
 30
0.0
 11
191.0804554812
 21
-201.0702949951
 31
0.0
  0
LINE
  5
D5
330
1F
100
AcDbEntity
  8
0
  6
Continuous
 62
     7
370
    25
100
AcDbLine
 10
91.080453991
 20
11.929704528
 30
0.0
 11
181.0804575673
 21
11.929704528
 31
0.0
  0
LINE
  5
D6
330
1F
100
AcDbEntity
  8
0
  6
Continuous
 62
     1
370
    25
100
AcDbLine
 10
81.1164423815
 20
-118.8831639479
 30
0.0
 11
191.0444691769
 21
-118.8831639479
 31
0.0
  0
LINE
  5
D7
330
1F
100
AcDbEntity
  8
0
  6
Continuous
 62
     1
370
    25
100
AcDbLine
 10
81.0804560772
 20
-119.2608599554
 30
0.0
 11
191.0804554812
 21
-119.2608599554
 31
0.0
  0
LINE
  5
D8
330
1F
100
AcDbEntity
  8
0
  6
Continuous
 62
     1
370
    25
100
AcDbLine
 10
91.0444676868
 20
-67.2574297528
 30
0.0
 11
181.1164438716
 21
-67.2574297528
 31
0.0
  0
LINE
  5
D9
330
1F
100
AcDbEntity
  8
0
  6
Continuous
 62
     1
370
    25
100
AcDbLine
 10
91.080453991
 20
-66.8797356079
 30
0.0
 11
181.0804575673
 21
-66.8797356079
 31
0.0
  0
LINE
  5
DA
330
1F
100
AcDbEntity
  8
0
  6
Continuous
 62
     7
370
    25
100
AcDbLine
 10
350.9219327998
 20
-24.9489390574
 30
0.0
 11
293.0739265182
 21
8.4460041377
 31
0.0
  0
LINE
  5
DB
330
1F
100
AcDbEntity
  8
0
  6
Continuous
 62
     7
370
    25
100
AcDbLine
 10
238.0783952362
 20
-86.8193739967
 30
0.0
 11
295.9264015178
 21
-120.2143171918
 31
0.0
  0
SPLINE
  5
DC
330
1F
100
AcDbEntity
  8
0
  6
Continuous
 62
     7
370
    25
100
AcDbSpline
210
0.0
220
0.0
230
1.0
 70
     8
 71
     3
 72
    11
 73
     7
 74
     0
 42
0.000000001
 43
0.00000001
 40
0.0
 40
0.0
 40
0.0
 40
0.0
 40
0.0956456588439076
 40
0.4682291201551146
 40
0.8393795726979597
 40
1.0
 40
1.0
 40
1.0
 40
1.0
 10
354.912740177093
 20
-28.00508935163338
 30
0.0
 10
354.803779245478
 20
-27.89184760856304
 30
0.0
 10
354.2703657925513
 20
-27.33747763125763
 30
0.0
 10
353.2129471641163
 20
-26.47887918792705
 30
0.0
 10
352.0391306555191
 20
-25.60567054796636
 30
0.0
 10
351.2930560545439
 20
-25.18437975651297
 30
0.0
 10
351.0677055779575
 20
-25.05712963901611
 30
0.0
  0
SPLINE
  5
DD
330
1F
100
AcDbEntity
  8
0
  6
Continuous
 62
     7
370
    25
100
AcDbSpline
210
0.0
220
0.0
230
1.0
 70
     8
 71
     3
 72
    10
 73
     6
 74
     0
 42
0.000000001
 43
0.00000001
 40
0.0
 40
0.0
 40
0.0
 40
0.0
 40
0.3982908724867267
 40
0.8060925582348144
 40
0.9999999999999999
 40
0.9999999999999999
 40
0.9999999999999999
 40
0.9999999999999999
 10
296.0055835923607
 20
-120.2576327508834
 30
0.0
 10
296.5186417491776
 20
-120.5325629003582
 30
0.0
 10
297.5570094114079
 20
-121.088988273961
 30
0.0
 10
298.9141976657379
 20
-121.6526339487485
 30
0.0
 10
299.7699964299664
 20
-121.9031890783639
 30
0.0
 10
300.0457870760601
 20
-121.9839332485673
 30
0.0
  0
LINE
  5
DE
330
1F
100
AcDbEntity
  8
0
  6
Continuous
 62
     7
370
    25
100
AcDbLine
 10
300.2044251797
 20
-122.05280616
 30
0.0
 11
340.9517032921
 21
-134.2186223999
 31
0.0
  0
LINE
  5
DF
330
1F
100
AcDbEntity
  8
0
  6
Continuous
 62
     7
370
    25
100
AcDbLine
 10
385.565668947
 20
-56.9365916469
 30
0.0
 11
354.6533855935
 21
-27.7342230013
 31
0.0
  0
LINE
  5
E0
330
1F
100
AcDbEntity
  8
0
  6
Continuous
 62
     7
370
    25
100
AcDbLine
 10
438.6880770603
 20
-87.161949466
 30
0.0
 11
384.363826537
 21
-55.8012271707
 31
0.0
  0
LINE
  5
E1
330
1F
100
AcDbEntity
  8
0
  6
Continuous
 62
     7
370
    25
100
AcDbLine
 10
339.3674822819
 20
-133.7456255267
 30
0.0
 11
393.6917328052
 21
-165.106347822
 31
0.0
  0
LWPOLYLINE
  5
E2
330
1F
100
AcDbEntity
  8
0
  6
Continuous
 62
     7
370
    25
100
AcDbPolyline
 90
      110
 70
   128
 43
0.0
 10
226.6852881226
 20
-61.637907883
 10
226.7498834363
 20
-59.0132783673
 10
226.943456009
 20
-56.3227866165
 10
227.2653631012
 20
-53.5753704807
 10
227.7145352367
 20
-50.7801556044
 10
228.2894788365
 20
-47.9464290004
 10
228.9882841215
 20
-45.0836057807
 10
229.8086330151
 20
-42.2011907534
 10
230.7477965088
 20
-39.3087624531
 10
231.8026557359
 20
-36.415929796
 10
232.9697098737
 20
-33.5322986211
 10
234.2450761438
 20
-30.6674534382
 10
235.6245240563
 20
-27.8309057203
 10
237.1034648731
 20
-25.0320832556
 10
238.6769911205
 20
-22.2802799612
 10
240.3398739551
 20
-19.5846376313
 10
242.0865895055
 20
-16.9541124794
 10
243.9113346776
 20
-14.3974416798
 10
245.8080482277
 20
-11.9231159923
 10
247.770429202
 20
-9.5393599923
 10
249.7919580098
 20
-7.2540864448
 10
251.8659214484
 20
-5.0748940257
 10
253.9854298252
 20
-3.0090118092
 10
256.1434400066
 20
-1.0633133386
 10
258.3327850528
 20
0.7557461087
 10
260.5461919983
 20
2.4421184935
 10
262.7763078643
 20
3.9902054074
 10
265.0157248483
 20
5.3948634895
 10
267.2570033729
 20
6.6514268573
 10
269.4926982634
 20
7.7557191768
 10
271.7153827838
 20
8.7040736225
 10
273.917673498
 20
9.4933411449
 10
276.0922546349
 20
10.1208954116
 10
278.2319019613
 20
10.5846587552
 10
280.3295084648
 20
10.8830835402
 10
282.3781060861
 20
11.0151829594
 10
284.3708894261
 20
10.9805173433
 10
286.3012387955
 20
10.7792013825
 10
288.1627412879
 20
10.4119010838
 10
289.9492118532
 20
9.8798428937
 10
291.6547183225
 20
9.184788601
 10
293.273597213
 20
8.3290505441
 10
294.8004642649
 20
7.3154672759
 10
296.2302539538
 20
6.1474111641
 10
297.5582115883
 20
4.8287594947
 10
298.7799301886
 20
3.3638914266
 10
299.8913478522
 20
1.7576758242
 10
300.8887740957
 20
0.0154469207
 10
301.768895123
 20
-1.8570078504
 10
302.5287869966
 20
-3.8534676284
 10
303.1659261739
 20
-5.9673017005
 10
303.6781974099
 20
-8.1914862329
 10
304.0638963915
 20
-10.5186339291
 10
304.3217429082
 20
-12.9410138034
 10
304.450880852
 20
-15.4505795077
 10
304.450880852
 20
-18.0389940469
 10
304.3217429082
 20
-20.6976592474
 10
304.0638963915
 20
-23.4177423731
 10
303.6781974099
 20
-26.1902086346
 10
303.1659261739
 20
-29.0058489467
 10
302.5287869966
 20
-31.8553082546
 10
301.768895123
 20
-34.7291205149
 10
300.8887740957
 20
-37.6177413944
 10
299.8913478522
 20
-40.511574126
 10
298.7799301886
 20
-43.4010052487
 10
297.5582115883
 20
-46.2764395881
 10
296.2302539538
 20
-49.1283185066
 10
294.8004642649
 20
-51.9471746549
 10
293.273597213
 20
-54.7236410972
 10
291.6547183225
 20
-57.4484969358
 10
289.9492118532
 20
-60.1126870838
 10
288.1627412879
 20
-62.7073602846
 10
286.3012387955
 20
-65.2239056131
 10
284.3708894261
 20
-67.6539555158
 10
282.3781060861
 20
-69.989439802
 10
280.3295084648
 20
-72.2226008503
 10
278.2319019613
 20
-74.3460209839
 10
276.0922546349
 20
-76.3526418597
 10
273.917673498
 20
-78.2358055316
 10
271.7153827838
 20
-79.9892487445
 10
269.4926982634
 20
-81.6071512219
 10
267.2570033729
 20
-83.0841372788
 10
265.0157248483
 20
-84.4152990143
 10
262.7763078643
 20
-85.5962167464
 10
260.5461919983
 20
-86.6229668044
 10
258.3327850528
 20
-87.4921396826
 10
256.1434400066
 20
-88.2008442206
 10
253.9854298252
 20
-88.7467312707
 10
251.8659214484
 20
-89.1279813373
 10
249.7919580098
 20
-89.343336135
 10
247.770429202
 20
-89.3920700683
 10
245.8080482277
 20
-89.2740309141
 10
243.9113346776
 20
-88.9896040782
 10
242.0865895055
 20
-88.5397392097
 10
240.3398739551
 20
-87.9259289054
 10
238.6769911205
 20
-87.1502102295
 10
237.1034648731
 20
-86.2151616696
 10
235.6245240563
 20
-85.1238879258
 10
234.2450761438
 20
-83.8800168666
 10
232.9697098737
 20
-82.487678236
 10
231.8026557359
 20
-80.9514990873
 10
230.7477965088
 20
-79.2765809698
 10
229.8086330151
 20
-77.4684877585
 10
228.9882841215
 20
-75.533227403
 10
228.2894788365
 20
-73.4772275917
 10
227.7145352367
 20
-71.3073167383
 10
227.2653631012
 20
-69.0307049708
 10
226.943456009
 20
-66.6549548526
 10
226.7498834363
 20
-64.1879572369
 10
226.6852881226
 20
-61.637907883
  0
LWPOLYLINE
  5
E3
330
1F
100
AcDbEntity
  8
0
  6
Continuous
 62
     7
370
    25
100
AcDbPolyline
 90
      104
 70
   128
 43
0.0
 10
231.3521928532
 20
-58.9437611286
 10
231.4158503995
 20
-56.4976811775
 10
231.6065859624
 20
-53.9872034646
 10
231.9236909481
 20
-51.4216664076
 10
232.3659878789
 20
-48.8106137055
 10
232.9318251252
 20
-46.163760877
 10
233.6191032472
 20
-43.4909511569
 10
234.4252644579
 20
-40.8021303993
 10
235.3473084286
 20
-38.1072991702
 10
236.3818028253
 20
-35.4164861321
 10
237.5249070164
 20
-32.7396940535
 10
238.7723615361
 20
-30.0868876405
 10
240.1195275969
 20
-27.4679327033
 10
241.5613923579
 20
-24.8925748639
 10
243.0925952668
 20
-22.3703893682
 10
244.7074399137
 20
-19.910760554
 10
246.3999164214
 20
-17.5228430704
 10
248.1637291043
 20
-15.2155124493
 10
249.9923175422
 20
-12.9973590245
 10
251.8788802872
 20
-10.8766286173
 10
253.816395938
 20
-8.8612164552
 10
255.7976600175
 20
-6.9586154634
 10
257.8153001199
 20
-5.1759075212
 10
259.8618108136
 20
-3.5197189784
 10
261.9295799826
 20
-1.9962145735
 10
264.0109143453
 20
-0.6110614097
 10
266.0980715585
 20
0.630586537
 10
268.1832872178
 20
1.7241131298
 10
270.2588041629
 20
2.6654478634
 10
272.3169012887
 20
3.451091622
 10
274.3499230152
 20
4.0781184825
 10
276.3503053004
 20
4.5441998568
 10
278.3106072496
 20
4.8475984052
 10
280.2235354826
 20
4.9871851444
 10
282.081975743
 20
4.9624424866
 10
283.8790119964
 20
4.7734630966
 10
285.6079613331
 20
4.4209487483
 10
287.2623910903
 20
3.9062110834
 10
288.8361451941
 20
3.2311624833
 10
290.323373135
 20
2.3983206289
 10
291.7185365536
 20
1.4107773218
 10
293.0164513877
 20
0.2722106469
 10
294.2122865547
 20
-1.0131462062
 10
295.3015929279
 20
-2.4405110291
 10
296.2803165073
 20
-4.0045769316
 10
297.1448221272
 20
-5.6995184266
 10
297.891888188
 20
-7.5190370584
 10
298.5187382659
 20
-9.4563598838
 10
299.0230384792
 20
-11.5042828188
 10
299.4029159274
 20
-13.6551847089
 10
299.6569560568
 20
-15.901065732
 10
299.7842105633
 20
-18.2335720192
 10
299.7842105633
 20
-20.6440243634
 10
299.6569560568
 20
-23.1234555764
 10
299.4029159274
 20
-25.6626450897
 10
299.0230384792
 20
-28.2521441457
 10
298.5187382659
 20
-30.8823197134
 10
297.891888188
 20
-33.5433882334
 10
297.1448221272
 20
-36.2254509791
 10
296.2803165073
 20
-38.918529417
 10
295.3015929279
 20
-41.6126055113
 10
294.2122865547
 20
-44.2976567021
 10
293.0164513877
 20
-46.9636954503
 10
291.7185365536
 20
-49.6008026954
 10
290.323373135
 20
-52.1991673984
 10
288.8361451941
 20
-54.7491260834
 10
287.2623910903
 20
-57.2411924954
 10
285.6079613331
 20
-59.6660940991
 10
283.8790119964
 20
-62.0148108611
 10
282.081975743
 20
-64.2786041456
 10
280.2235354826
 20
-66.4490562554
 10
278.3106072496
 20
-68.5180894422
 10
276.3503053004
 20
-70.4780073484
 10
274.3499230152
 20
-72.3215181994
 10
272.3169012887
 20
-74.0417682612
 10
270.2588041629
 20
-75.6323528646
 10
268.1832872178
 20
-77.0873589882
 10
266.0980715585
 20
-78.4013711498
 10
264.0109143453
 20
-79.5695036279
 10
261.9295799826
 20
-80.5874079686
 10
259.8618108136
 20
-81.4512990291
 10
257.8153001199
 20
-82.1579614385
 10
255.7976600175
 20
-82.7047711736
 10
253.816395938
 20
-83.0896889967
 10
251.8788802872
 20
-83.3112847889
 10
249.9923175422
 20
-83.3687333633
 10
248.1637291043
 20
-83.2618232098
 10
246.3999164214
 20
-82.9909473653
 10
244.7074399137
 20
-82.5571216633
 10
243.0925952668
 20
-81.9619527924
 10
241.5613923579
 20
-81.2076565447
 10
240.1195275969
 20
-80.2970403234
 10
238.7723615361
 20
-79.2334902122
 10
237.5249070164
 20
-78.0209641303
 10
236.3818028253
 20
-76.6639720581
 10
235.3473084286
 20
-75.1675608268
 10
234.4252644579
 20
-73.5372989063
 10
233.6191032472
 20
-71.7792520705
 10
232.9318251252
 20
-69.8999567796
 10
232.3659878789
 20
-67.9064057298
 10
231.9236909481
 20
-65.8060181942
 10
231.6065859624
 20
-63.6066027606
 10
231.4158503995
 20
-61.3163436411
 10
231.3521928532
 20
-58.9437611286
  0
LINE
  5
E4
330
1F
100
AcDbEntity
  8
0
  6
Continuous
 62
     7
370
    25
100
AcDbLine
 10
350.9219327998
 20
-24.9489390574
 30
0.0
 11
351.067263036
 21
-25.0337306182
 31
0.0
  0
LINE
  5
E5
330
1F
100
AcDbEntity
  8
0
  6
Continuous
 62
     7
370
    25
100
AcDbLine
 10
295.9993629809
 20
-120.2562133759
 30
0.0
 11
295.9264015178
 21
-120.2143171918
 31
0.0
  0
LINE
  5
E6
330
1F
100
AcDbEntity
  8
0
  6
Continuous
 62
     7
370
    25
100
AcDbLine
 10
354.6533855935
 20
-27.7342230013
 30
0.0
 11
354.9050391576
 21
-27.9762776182
 31
0.0
  0
LINE
  5
E7
330
1F
100
AcDbEntity
  8
0
  6
Continuous
 62
     7
370
    25
100
AcDbLine
 10
300.2044251797
 20
-122.05280616
 30
0.0
 11
300.0484186199
 21
-122.0055089807
 31
0.0
  0
LINE
  5
E8
330
1F
100
AcDbEntity
  8
0
  6
Continuous
 62
     7
370
    25
100
AcDbLine
 10
385.565668947
 20
-56.9365916469
 30
0.0
 11
385.7213356978
 21
-57.0856585012
 31
0.0
  0
LINE
  5
E9
330
1F
100
AcDbEntity
  8
0
  6
Continuous
 62
     7
370
    25
100
AcDbLine
 10
341.0394793724
 20
-134.2445532953
 30
0.0
 11
340.9517032921
 21
-134.2186223999
 31
0.0
  0
LWPOLYLINE
  5
EA
330
1F
100
AcDbEntity
  8
0
  6
Continuous
 62
     7
370
    25
100
AcDbPolyline
 90
       51
 70
   128
 43
0.0
 10
438.6880770603
 20
-87.161949466
 10
439.9040742259
 20
-87.9442650502
 10
441.2019600841
 20
-88.981154792
 10
442.3991334135
 20
-90.1676439902
 10
443.4907710342
 20
-91.4989595269
 10
444.4724765032
 20
-92.9697382053
 10
445.3402985532
 20
-94.5740586907
 10
446.0907416302
 20
-96.3054597622
 10
446.7207843319
 20
-98.1569714941
 10
447.2278899448
 20
-100.1211373095
 10
447.610016981
 20
-102.1900474425
 10
447.8656270805
 20
-104.3553723986
 10
447.9936902797
 20
-106.6083923285
 10
447.9936902797
 20
-108.9400360022
 10
447.8656270805
 20
-111.3409145546
 10
447.610016981
 20
-113.8013606498
 10
447.2278899448
 20
-116.3114652677
 10
446.7207843319
 20
-118.8611227613
 10
446.0907416302
 20
-121.4400663127
 10
445.3402985532
 20
-124.0379105182
 10
444.4724765032
 20
-126.6441970151
 10
443.4907710342
 20
-129.2484287018
 10
442.3991334135
 20
-131.8401222075
 10
441.2019600841
 20
-134.4088383102
 10
439.9040742259
 20
-136.9442351672
 10
438.5106994142
 20
-139.4361017729
 10
437.027446448
 20
-141.8744081483
 10
435.4602870089
 20
-144.2493342359
 10
433.8155339046
 20
-146.5513162862
 10
432.0998081416
 20
-148.7710871594
 10
430.3200178518
 20
-150.8997036995
 10
428.4833319507
 20
-152.9286014857
 10
426.5971439175
 20
-154.8496066159
 10
424.669050063
 20
-156.6549817127
 10
422.70681331
 20
-158.337465084
 10
420.7183352047
 20
-159.8902747125
 10
418.7116231544
 20
-161.3071575879
 10
416.6947568006
 20
-162.582415203
 10
414.6758576021
 20
-163.7109059034
 10
412.663055003
 20
-164.6880917956
 10
410.6644537515
 20
-165.510030236
 10
408.6881017555
 20
-166.1734197646
 10
406.7419565375
 20
-166.6755829679
 10
404.8338554358
 20
-167.0144988908
 10
402.9714797134
 20
-167.1888085464
 10
401.1623315094
 20
-167.1978008453
 10
399.413693009
 20
-167.0414452918
 10
397.7326066872
 20
-166.7203729707
 10
396.1258423814
 20
-166.2358712201
 10
394.5998683158
 20
-165.5898973183
 10
393.6917328052
 20
-165.106347822
  0
LWPOLYLINE
  5
EB
330
1F
100
AcDbEntity
  8
0
  6
Continuous
 62
     1
370
    25
100
AcDbPolyline
 90
       57
 70
   128
 43
0.0
 10
351.067263036
 20
-25.0337306182
 10
351.1216034947
 20
-25.065892651
 10
352.6484705466
 20
-26.0794759192
 10
354.0782602354
 20
-27.2475320309
 10
355.40621787
 20
-28.5661837003
 10
356.6279364703
 20
-30.0310517685
 10
357.7393541339
 20
-31.6372673708
 10
358.7367803773
 20
-33.3794962743
 10
359.6169014046
 20
-35.2519510455
 10
360.3767932782
 20
-37.2484108235
 10
361.0139324555
 20
-39.3622448955
 10
361.5262036916
 20
-41.5864294279
 10
361.9119026732
 20
-43.9135771242
 10
362.1697491898
 20
-46.3359569985
 10
362.2988871337
 20
-48.8455227027
 10
362.2988871337
 20
-51.4339372419
 10
362.1697491898
 20
-54.0926024425
 10
361.9119026732
 20
-56.8126855681
 10
361.5262036916
 20
-59.5851518297
 10
361.0139324555
 20
-62.4007921417
 10
360.3767932782
 20
-65.2502514497
 10
359.6169014046
 20
-68.1240637099
 10
358.7367803773
 20
-71.0126845895
 10
357.7393541339
 20
-73.9065173211
 10
356.6279364703
 20
-76.7959484438
 10
355.40621787
 20
-79.6713827831
 10
354.0782602354
 20
-82.5232617017
 10
352.6484705466
 20
-85.34211785
 10
351.1216034947
 20
-88.1185842923
 10
349.5027246041
 20
-90.8434401309
 10
347.7972181348
 20
-93.5076302789
 10
346.0107475695
 20
-96.1023034797
 10
344.1492450772
 20
-98.6188488081
 10
342.2188957078
 20
-101.0488987109
 10
340.2261123677
 20
-103.384382997
 10
338.1775147465
 20
-105.6175440454
 10
336.0799082429
 20
-107.7409641789
 10
333.9402609166
 20
-109.7475850547
 10
331.7656797797
 20
-111.6307487266
 10
329.5633890655
 20
-113.3841919396
 10
327.340704545
 20
-115.0020944169
 10
325.1050096546
 20
-116.4790804738
 10
322.8637311299
 20
-117.8102422094
 10
320.6243141459
 20
-118.9911599415
 10
318.39419828
 20
-120.0179099994
 10
316.1807913345
 20
-120.8870828776
 10
313.9914462883
 20
-121.5957874157
 10
311.8334361068
 20
-122.1416744657
 10
309.71392773
 20
-122.5229245323
 10
307.6399642914
 20
-122.7382793301
 10
305.6184354836
 20
-122.7870132634
 10
303.6560545094
 20
-122.6689741091
 10
301.7593409593
 20
-122.3845472732
 10
299.9345957872
 20
-121.9346824047
 10
298.1878802367
 20
-121.3208721004
 10
296.5249974021
 20
-120.5451534246
 10
295.9993629809
 20
-120.2562133759
  0
LWPOLYLINE
  5
EC
330
1F
100
AcDbEntity
  8
0
  6
Continuous
 62
     1
370
    25
100
AcDbPolyline
 90
       52
 70
   128
 43
0.0
 10
354.9050391576
 20
-27.9762776182
 10
355.6523633678
 20
-28.7491620714
 10
356.873281178
 20
-30.2130703603
 10
357.9839718085
 20
-31.8182349347
 10
358.9807447757
 20
-33.5593246035
 10
359.8602915522
 20
-35.4305534545
 10
360.6196855662
 20
-37.4257082315
 10
361.2564085433
 20
-39.5381574616
 10
361.7683452388
 20
-41.7608864366
 10
362.1537913393
 20
-44.0865116624
 10
362.4114692686
 20
-46.5073067162
 10
362.5405229187
 20
-49.015230288
 10
362.5405229187
 20
-51.6019510863
 10
362.4114692686
 20
-54.2588768309
 10
362.1537913393
 20
-56.9771804892
 10
361.7683452388
 20
-59.74783231
 10
361.2564085433
 20
-62.5616308123
 10
360.6196855662
 20
-65.4092247439
 10
359.8602915522
 20
-68.2811571865
 10
358.9807447757
 20
-71.1678891302
 10
357.9839718085
 20
-74.0598283705
 10
356.873281178
 20
-76.9473690507
 10
355.6523633678
 20
-79.8209190381
 10
354.3252723779
 20
-82.6709349039
 10
352.8964204564
 20
-85.4879447363
 10
351.3705517579
 20
-88.262593766
 10
349.7527344411
 20
-90.9856656582
 10
348.0483422291
 20
-93.6481144508
 10
346.2630386047
 20
-96.2410919288
 10
344.4027557368
 20
-98.7559871672
 10
342.4736694557
 20
-101.1844501024
 10
340.4821900338
 20
-103.5184059805
 10
338.4349332092
 20
-105.750105545
 10
336.3386991124
 20
-107.8721341602
 10
334.2004518517
 20
-109.8774448899
 10
332.0272931709
 20
-111.7593737035
 10
329.8264440107
 20
-113.5116714144
 10
327.6052135565
 20
-115.1285154638
 10
325.3709812934
 20
-116.604532448
 10
323.131169265
 20
-117.9348263003
 10
320.8932176249
 20
-119.1149711118
 10
318.6645607643
 20
-120.1410492476
 10
316.4526022874
 20
-121.0096536256
 10
314.2646895755
 20
-121.717893275
 10
312.1080913135
 20
-122.263421519
 10
309.9899698315
 20
-122.6444245653
 10
307.9173643116
 20
-122.8596372839
 10
305.8971565441
 20
-122.9083416831
 10
303.9360597316
 20
-122.7903794561
 10
302.0405881965
 20
-122.5061390502
 10
300.2170376241
 20
-122.056567072
 10
300.2044251797
 20
-122.05280616
  0
LWPOLYLINE
  5
ED
330
1F
100
AcDbEntity
  8
0
  6
Continuous
 62
     1
370
    25
100
AcDbPolyline
 90
       47
 70
   128
 43
0.0
 10
385.7213356978
 20
-57.0856585012
 10
386.4263339354
 20
-57.8143728191
 10
387.5188434691
 20
-59.1467515647
 10
388.5013339231
 20
-60.6187075134
 10
389.369848762
 20
-62.2243102042
 10
390.1208924315
 20
-63.9570968955
 10
390.7514408954
 20
-65.8100877751
 10
391.2589521717
 20
-67.775824745
 10
391.6413847726
 20
-69.8463896739
 10
391.897200338
 20
-72.0134450826
 10
392.025363636
 20
-74.2682684596
 10
392.025363636
 20
-76.6017767883
 10
391.897200338
 20
-79.0045743595
 10
391.6413847726
 20
-81.4669881331
 10
391.2589521717
 20
-83.9791003443
 10
390.7514408954
 20
-86.5307973614
 10
390.1208924315
 20
-89.1118040011
 10
389.369848762
 20
-91.7117272558
 10
388.5013339231
 20
-94.3200958351
 10
387.5188434691
 20
-96.9264111164
 10
386.4263339354
 20
-99.5201745203
 10
385.2282043994
 20
-102.090945304
 10
383.9292806751
 20
-104.6283694577
 10
382.5347889718
 20
-107.1222314133
 10
381.0503506255
 20
-109.5624875042
 10
379.4819386348
 20
-111.9393108292
 10
377.8358697586
 20
-114.2431353577
 10
376.1187715888
 20
-116.4646810225
 10
374.3375588429
 20
-118.595000866
 10
372.4994030704
 20
-120.6255198212
 10
370.6117069703
 20
-122.5480617054
 10
368.6820708046
 20
-124.3548807765
 10
366.7182653985
 20
-126.0387077385
 10
364.7281972375
 20
-127.5927607647
 10
362.7198801496
 20
-129.0107770545
 10
360.7014008968
 20
-130.2870539901
 10
358.6808872354
 20
-131.4164493235
 10
356.6664748242
 20
-132.3944124479
 10
354.6662752852
 20
-133.2170119607
 10
352.6883427823
 20
-133.8809306232
 10
350.7406414237
 20
-134.3834933037
 10
348.8310131572
 20
-134.7226824698
 10
346.9671491243
 20
-134.8971303899
 10
345.1565534395
 20
-134.9061309181
 10
343.4065175076
 20
-134.7496512781
 10
341.7240864379
 20
-134.4283210338
 10
341.0394793724
 20
-134.2445532953
  0
LWPOLYLINE
  5
EE
330
1F
100
AcDbEntity
  8
0
  6
Continuous
 62
     1
370
    25
100
AcDbPolyline
 90
       49
 70
   128
 43
0.0
 10
385.0157776974
 20
-56.4171158276
 10
385.4752705424
 20
-56.8108216844
 10
386.6724438718
 20
-57.9973108826
 10
387.7640814926
 20
-59.3286264193
 10
388.7457869615
 20
-60.7994050977
 10
389.6136090116
 20
-62.4037255831
 10
390.3640520886
 20
-64.1351266546
 10
390.9940947903
 20
-65.9866383865
 10
391.5012004032
 20
-67.9508042019
 10
391.8833274394
 20
-70.0197143349
 10
392.1389375389
 20
-72.185039291
 10
392.2670007381
 20
-74.4380592209
 10
392.2670007381
 20
-76.7697028946
 10
392.1389375389
 20
-79.170581447
 10
391.8833274394
 20
-81.6310275422
 10
391.5012004032
 20
-84.1411321601
 10
390.9940947903
 20
-86.6907896537
 10
390.3640520886
 20
-89.2697332051
 10
389.6136090116
 20
-91.8675774106
 10
388.7457869615
 20
-94.4738639075
 10
387.7640814926
 20
-97.0780955942
 10
386.6724438718
 20
-99.6697890999
 10
385.4752705424
 20
-102.2385052026
 10
384.1773846843
 20
-104.7739020596
 10
382.7840098725
 20
-107.2657686653
 10
381.3007569063
 20
-109.7040750407
 10
379.7335974672
 20
-112.0790011283
 10
378.088844363
 20
-114.3809831786
 10
376.3731186
 20
-116.6007540518
 10
374.5933283102
 20
-118.7293705919
 10
372.7566424091
 20
-120.7582683781
 10
370.8704543758
 20
-122.6792735083
 10
368.9423605214
 20
-124.4846486051
 10
366.9801237683
 20
-126.1671319764
 10
364.991645663
 20
-127.7199416049
 10
362.9849336128
 20
-129.1368244803
 10
360.9680672589
 20
-130.4120820954
 10
358.9491680605
 20
-131.5405727958
 10
356.9363654613
 20
-132.517758688
 10
354.9377642099
 20
-133.3396971284
 10
352.9614122138
 20
-134.003086657
 10
351.0152669959
 20
-134.5052498603
 10
349.1071658941
 20
-134.8441657832
 10
347.2447901718
 20
-135.0184754388
 10
345.4356419678
 20
-135.0274677377
 10
343.6870034674
 20
-134.8711121842
 10
342.0059171455
 20
-134.5500398631
 10
340.3991528397
 20
-134.0655381125
 10
340.2268578401
 20
-134.0022080866
  0
ENDSEC
  0
SECTION
  2
OBJECTS
  0
DICTIONARY
  5
C
330
0
100
AcDbDictionary
281
     1
  3
ACAD_GROUP
350
D
  3
ACAD_LAYOUT
350
1A
  3
ACAD_MLINESTYLE
350
17
  3
ACAD_PLOTSETTINGS
350
19
  3
ACAD_PLOTSTYLENAME
350
E
  3
ACAD_SCALELIST
350
47
  0
DICTIONARY
  5
D
102
{ACAD_REACTORS
330
C
102
}
330
C
100
AcDbDictionary
281
     1
  0
DICTIONARY
  5
1A
102
{ACAD_REACTORS
330
C
102
}
330
C
100
AcDbDictionary
281
     1
  3
Layout1
350
1E
  3
Layout2
350
26
  3
Model
350
22
  0
DICTIONARY
  5
17
102
{ACAD_REACTORS
330
C
102
}
330
C
100
AcDbDictionary
281
     1
  3
Standard
350
18
  0
DICTIONARY
  5
19
102
{ACAD_REACTORS
330
C
102
}
330
C
100
AcDbDictionary
281
     1
  0
ACDBDICTIONARYWDFLT
  5
E
102
{ACAD_REACTORS
330
C
102
}
330
C
100
AcDbDictionary
281
     1
  3
Normal
350
F
100
AcDbDictionaryWithDefault
340
F
  0
DICTIONARY
  5
47
102
{ACAD_REACTORS
330
C
102
}
330
C
100
AcDbDictionary
281
     1
  3
A0
350
48
  3
A1
350
49
  3
A2
350
4A
  3
A3
350
4B
  3
A4
350
4C
  3
A5
350
4D
  3
A6
350
4E
  3
A7
350
4F
  3
A8
350
50
  3
A9
350
51
  3
B0
350
52
  3
B1
350
53
  3
B2
350
54
  3
B3
350
55
  3
B4
350
56
  3
B5
350
57
  3
B6
350
58
  3
B7
350
59
  3
B8
350
5A
  3
B9
350
5B
  3
C0
350
5C
  3
C1
350
5D
  3
C2
350
5E
  3
C3
350
5F
  3
C4
350
60
  3
C5
350
61
  3
C6
350
62
  3
C7
350
63
  3
C8
350
64
  3
C9
350
65
  3
D0
350
66
  3
D1
350
67
  3
D2
350
68
  0
LAYOUT
  5
1E
102
{ACAD_REACTORS
330
1A
102
}
330
1A
100
AcDbPlotSettings
  1

  2
none_device
  4

  6

 40
0.0
 41
0.0
 42
0.0
 43
0.0
 44
0.0
 45
0.0
 46
0.0
 47
0.0
 48
0.0
 49
0.0
140
0.0
141
0.0
142
1.0
143
1.0
 70
   688
 72
     1
 73
     0
 74
     5
  7

 75
    16
147
1.0
148
0.0
149
0.0
100
AcDbLayout
  1
Layout1
 70
     1
 71
     1
 10
0.0
 20
0.0
 11
420.0
 21
297.0
 12
0.0
 22
0.0
 32
0.0
 14
1.0000000000E+20
 24
1.0000000000E+20
 34
1.0000000000E+20
 15
-1.0000000000E+20
 25
-1.0000000000E+20
 35
-1.0000000000E+20
146
0.0
 13
0.0
 23
0.0
 33
0.0
 16
1.0
 26
0.0
 36
0.0
 17
0.0
 27
1.0
 37
0.0
 76
     0
330
1B
  0
LAYOUT
  5
26
102
{ACAD_REACTORS
330
1A
102
}
330
1A
100
AcDbPlotSettings
  1

  2
none_device
  4

  6

 40
0.0
 41
0.0
 42
0.0
 43
0.0
 44
0.0
 45
0.0
 46
0.0
 47
0.0
 48
0.0
 49
0.0
140
0.0
141
0.0
142
1.0
143
1.0
 70
   688
 72
     1
 73
     0
 74
     5
  7

 75
    16
147
1.0
148
0.0
149
0.0
100
AcDbLayout
  1
Layout2
 70
     1
 71
     2
 10
0.0
 20
0.0
 11
0.0
 21
0.0
 12
0.0
 22
0.0
 32
0.0
 14
0.0
 24
0.0
 34
0.0
 15
0.0
 25
0.0
 35
0.0
146
0.0
 13
0.0
 23
0.0
 33
0.0
 16
1.0
 26
0.0
 36
0.0
 17
0.0
 27
1.0
 37
0.0
 76
     0
330
23
  0
LAYOUT
  5
22
102
{ACAD_REACTORS
330
1A
102
}
330
1A
100
AcDbPlotSettings
  1

  2
none_device
  4
Letter_(8.50_x_11.00_Inches)
  6

 40
6.35
 41
6.35
 42
6.35000508
 43
6.35000508
 44
215.9
 45
279.4
 46
0.0
 47
0.0
 48
0.0
 49
0.0
140
0.0
141
0.0
142
1.0
143
1.0
 70
  1712
 72
     1
 73
     0
 74
     0
  7

 75
     0
147
1.0
148
0.0
149
0.0
100
AcDbLayout
  1
Model
 70
     1
 71
     0
 10
0.0
 20
0.0
 11
279.4
 21
215.9
 12
0.0
 22
0.0
 32
0.0
 14
0.0
 24
0.0
 34
0.0
 15
279.4
 25
215.9
 35
0.0
146
0.0
 13
0.0
 23
0.0
 33
0.0
 16
1.0
 26
0.0
 36
0.0
 17
0.0
 27
1.0
 37
0.0
 76
     0
330
1F
331
29
  0
MLINESTYLE
  5
18
102
{ACAD_REACTORS
330
17
102
}
330
17
100
AcDbMlineStyle
  2
Standard
 70
     0
  3

 62
   256
 51
90.0
 52
90.0
 71
     2
 49
0.5
 62
   256
  6
BYLAYER
 49
-0.5
 62
   256
  6
BYLAYER
  0
ACDBPLACEHOLDER
  5
F
102
{ACAD_REACTORS
330
E
102
}
330
E
  0
SCALE
  5
48
102
{ACAD_REACTORS
330
47
102
}
330
47
100
AcDbScale
 70
     0
300
1:1
140
1.0
141
1.0
290
     1
  0
SCALE
  5
49
102
{ACAD_REACTORS
330
47
102
}
330
47
100
AcDbScale
 70
     0
300
1:2
140
1.0
141
2.0
290
     0
  0
SCALE
  5
4A
102
{ACAD_REACTORS
330
47
102
}
330
47
100
AcDbScale
 70
     0
300
1:4
140
1.0
141
4.0
290
     0
  0
SCALE
  5
4B
102
{ACAD_REACTORS
330
47
102
}
330
47
100
AcDbScale
 70
     0
300
1:5
140
1.0
141
5.0
290
     0
  0
SCALE
  5
4C
102
{ACAD_REACTORS
330
47
102
}
330
47
100
AcDbScale
 70
     0
300
1:8
140
1.0
141
8.0
290
     0
  0
SCALE
  5
4D
102
{ACAD_REACTORS
330
47
102
}
330
47
100
AcDbScale
 70
     0
300
1:10
140
1.0
141
10.0
290
     0
  0
SCALE
  5
4E
102
{ACAD_REACTORS
330
47
102
}
330
47
100
AcDbScale
 70
     0
300
1:16
140
1.0
141
16.0
290
     0
  0
SCALE
  5
4F
102
{ACAD_REACTORS
330
47
102
}
330
47
100
AcDbScale
 70
     0
300
1:20
140
1.0
141
20.0
290
     0
  0
SCALE
  5
50
102
{ACAD_REACTORS
330
47
102
}
330
47
100
AcDbScale
 70
     0
300
1:30
140
1.0
141
30.0
290
     0
  0
SCALE
  5
51
102
{ACAD_REACTORS
330
47
102
}
330
47
100
AcDbScale
 70
     0
300
1:40
140
1.0
141
40.0
290
     0
  0
SCALE
  5
52
102
{ACAD_REACTORS
330
47
102
}
330
47
100
AcDbScale
 70
     0
300
1:50
140
1.0
141
50.0
290
     0
  0
SCALE
  5
53
102
{ACAD_REACTORS
330
47
102
}
330
47
100
AcDbScale
 70
     0
300
1:100
140
1.0
141
100.0
290
     0
  0
SCALE
  5
54
102
{ACAD_REACTORS
330
47
102
}
330
47
100
AcDbScale
 70
     0
300
2:1
140
2.0
141
1.0
290
     0
  0
SCALE
  5
55
102
{ACAD_REACTORS
330
47
102
}
330
47
100
AcDbScale
 70
     0
300
4:1
140
4.0
141
1.0
290
     0
  0
SCALE
  5
56
102
{ACAD_REACTORS
330
47
102
}
330
47
100
AcDbScale
 70
     0
300
8:1
140
8.0
141
1.0
290
     0
  0
SCALE
  5
57
102
{ACAD_REACTORS
330
47
102
}
330
47
100
AcDbScale
 70
     0
300
10:1
140
10.0
141
1.0
290
     0
  0
SCALE
  5
58
102
{ACAD_REACTORS
330
47
102
}
330
47
100
AcDbScale
 70
     0
300
100:1
140
100.0
141
1.0
290
     0
  0
SCALE
  5
59
102
{ACAD_REACTORS
330
47
102
}
330
47
100
AcDbScale
 70
     0
300
1/128" = 1'-0"
140
0.0078125
141
12.0
290
     0
  0
SCALE
  5
5A
102
{ACAD_REACTORS
330
47
102
}
330
47
100
AcDbScale
 70
     0
300
1/64" = 1'-0"
140
0.015625
141
12.0
290
     0
  0
SCALE
  5
5B
102
{ACAD_REACTORS
330
47
102
}
330
47
100
AcDbScale
 70
     0
300
1/32" = 1'-0"
140
0.03125
141
12.0
290
     0
  0
SCALE
  5
5C
102
{ACAD_REACTORS
330
47
102
}
330
47
100
AcDbScale
 70
     0
300
1/16" = 1'-0"
140
0.0625
141
12.0
290
     0
  0
SCALE
  5
5D
102
{ACAD_REACTORS
330
47
102
}
330
47
100
AcDbScale
 70
     0
300
3/32" = 1'-0"
140
0.09375
141
12.0
290
     0
  0
SCALE
  5
5E
102
{ACAD_REACTORS
330
47
102
}
330
47
100
AcDbScale
 70
     0
300
1/8" = 1'-0"
140
0.125
141
12.0
290
     0
  0
SCALE
  5
5F
102
{ACAD_REACTORS
330
47
102
}
330
47
100
AcDbScale
 70
     0
300
3/16" = 1'-0"
140
0.1875
141
12.0
290
     0
  0
SCALE
  5
60
102
{ACAD_REACTORS
330
47
102
}
330
47
100
AcDbScale
 70
     0
300
1/4" = 1'-0"
140
0.25
141
12.0
290
     0
  0
SCALE
  5
61
102
{ACAD_REACTORS
330
47
102
}
330
47
100
AcDbScale
 70
     0
300
3/8" = 1'-0"
140
0.375
141
12.0
290
     0
  0
SCALE
  5
62
102
{ACAD_REACTORS
330
47
102
}
330
47
100
AcDbScale
 70
     0
300
1/2" = 1'-0"
140
0.5
141
12.0
290
     0
  0
SCALE
  5
63
102
{ACAD_REACTORS
330
47
102
}
330
47
100
AcDbScale
 70
     0
300
3/4" = 1'-0"
140
0.75
141
12.0
290
     0
  0
SCALE
  5
64
102
{ACAD_REACTORS
330
47
102
}
330
47
100
AcDbScale
 70
     0
300
1" = 1'-0"
140
1.0
141
12.0
290
     0
  0
SCALE
  5
65
102
{ACAD_REACTORS
330
47
102
}
330
47
100
AcDbScale
 70
     0
300
1-1/2" = 1'-0"
140
1.5
141
12.0
290
     0
  0
SCALE
  5
66
102
{ACAD_REACTORS
330
47
102
}
330
47
100
AcDbScale
 70
     0
300
3" = 1'-0"
140
3.0
141
12.0
290
     0
  0
SCALE
  5
67
102
{ACAD_REACTORS
330
47
102
}
330
47
100
AcDbScale
 70
     0
300
6" = 1'-0"
140
6.0
141
12.0
290
     0
  0
SCALE
  5
68
102
{ACAD_REACTORS
330
47
102
}
330
47
100
AcDbScale
 70
     0
300
1'-0" = 1'-0"
140
12.0
141
12.0
290
     0
  0
ENDSEC
  0
EOF
